Acordes para guitarra

Indice Carajo

guitartabs

===================================================
| Carajo                                          |
| EL ERROR                                        |
| Corbata                                         |
| ---???--- ()                                    |
===================================================

El Error - Carajo

           Intro 2 veces
 A5             A5

 e------------------------------
 b------------------------------
 g------------------------------
 d-2-2-2----------2-2-2---------
 a-0-0-0-3-3-2-2--0-0-0-3-3-2-2-
 E------------------------------

  C5             C5
 e------------------------------
 b------------------------------
 g------------------------------
 d-5-5-5----------5-5-5---------
 a-3-3-3-6-6-5-5--3-3-3-6-6-5-5-
 E------------------------------


Verso 1:

    LAm                   DO
  Esclava del error, la humanidad
            RE                   MIm
  y por los siglos de los siglos estarás.
    LAm             DO
  Desigualdad,    desilusión
          RE                MIm
  ha florecido la maldad de su ambición.

   Pre-Estribillo:

     LAm
   Pariendo su ansiedad
     DO
   insiste en revelarse
     RE
   sufriendo al ignorar
              MIm
   donde se esconde la verdad.

Estribillo:

      LAm                DO            SIb
   En cada falla abras dejado (En cada falla abras dejado)
          LAm       DO           SIb
   Un pedacito de terror (Un pedacito de terror)
          LAm         DO         SIb
   Y continuamos lamentándonos, del error.

    Verso 2:
Quien nunca morirá es el error,
patina sobre el filo de la tentación,
si es bueno para mí, es malo para vos,
será que en un mismo lugar no caben dos

 Pre-Estribillo:
Cerrados al pensar,
que la verdad no existe,
dejamos la ilusión
llena de cicatrices

 Estribillo:
En cada falla abras dejado
(En cada falla abras dejado)
Un pedacito de terror
(Un pedacito de terror)
Y continuamos lamentándonos, del error.


LAm             DO
 e-------------0--------------0-
 b-------0--1-----------0--1----
 g-----2--------------0---------
 d---2--------------2-----------    X2
 a-0--------------3-------------
 E------------------------------


        LAm        DO                D
     La vida endureció al tonto corazón
                   MIm
     llenándolo de espinas de valor.
        LAm           DO                 D
     el tiempo se escapo por donde nadie vio
                      MIm
     y quiere dar la mano para vengarse
        LAm        DO       RE        MIm
     Vengarse...Vengarse…vengarse, VENGARCE!!

Estribillo:
En cada falla abras dejado
(En cada falla abras dejado)
Un pedacito de terror
(Un pedacito de terror)
En cada falla abras dejado
(En cada falla abras dejado)
Un pedacito de terror
(Un pedacito de terror)
 Un pedacito de terror

 e----------------------------
 b----------------------------
 g--2-2--2-2--2-2--2-2----/9--
 d--2-2--2-2--2-2--2-2-X4-----
 a--0-0--0-0--0-0--0-0--------
 E----------------------------

       MI
  Lamentándonos (x4)

   LAm             DO
 e-------------0--------------0-
 b-------0--1-----------0--1----
 g-----2--------------0---------
 d---2--------------2-----------    X2
 a-0--------------3-------------
 E------------------------------

Un pedacito de terror...

===================================================
Colaboracion de brian



Acordes para guitarra
x

Todo acerca de Carajo