Acordes para guitarra

Indice Cannibal Corpse

guitartabs





CANNIBAL CORPSE - NO REMORSE GUITAR TAB


Band:  CANNIBAL CORPSE
Album: WORM INFESTED (and as a bonustrack on GORE OBSESSED)
Song:  NO REMORSE

Copyright (c)  metal blade records 2002
Version 1.0 - 25/8/04

Transcribed By:  morbid_priest

.  - palm mute           /  - slide up to
\  - slide down to       ~  - vibrato
h  - hammer on           b  - Bend
p  - pull off            Suffixes for bend
t  - tap                 f  - full bend    h - half bend
ph - pinched harmonic    q  - quarter bend t - tap bend
*  - see comment         ^  - Hold bend    r release bend
x  - Stuccatto           ~  - vibrato bend

in case you dont know, this is a cover of a Metallica song, but Corpse
downtuned it and made it sound better in general. easy and enjoyable to
play. havent tabbed the solos, just make sure you use loads of wah.


Tune gtr to Bb

riff 1
                        1.  2.
------------------------|---|---|
------------------------|---|---|
------------------------|---|---|
------------------------|-2-|-4-|
--2h4-4-4p2-2-2h4-4-4p2-|-0-|-2-|
--0h2-2-2p0-0-0h2-2-2p0-|---|---|
      .     .     .

intro and underneath solo.

riff 2
        x3                x3
---------|-------|---------|-------|
---------|-------|---------|-------|
---------|-------|---------|-------|
---------|-----5-|---------|-------|
-----3h5-|-----3-|-----3h5-|-0-1-2-|
-0-0-----|-0-0---|-0-0-----|-------|
 . .       . .     . .

before and during vocals.

riff 3
------------------------|
------------------------|
------------------------|
------------------------|
-5--2--5--2--5--2--5-2--|
-3--0--3--0--3--0--3-0--|
    .     .     .    .

played after corpsegrinder says "...WAR WITHOUT END...".
Note that theres a pinch harmonic that one guitar plays
on the first chord.

riff 4
----------------------------------|
----------------------------------|
----------------------------------|
----------------------------------|
-----10-----9-----7-----5-----5h7-|
-0-0----0-0---0-0---0-0---0-0-----|
 . .    . .   . .   . .   . .


riff 5
--------------------------------------------|
--------------------------------------------|
--------------------------------------------|
----------9---------7----------5----------7-|
----------7---------5----------3----------5-|
-0-032000--0-032000---0-032000---0-032000---|
 .     ..  .     ..   .     ..   .     ..

palm mute as you see fit. ive just labelled the ones you should
put more emphasis on, but its up to you.


riff 6

gtr.1
--------------------------|
--------------------------|
--------------------------|
-12-10p9h10-9p7h9---------|
------------------9-10-12-|
--------------------------|
fast. may take a bit of practise.

gtr.2
-------------------------------|
-15-13p12h13-12p10h12----------|
----------------------11-12-14-|
-------------------------------|
-------------------------------|
-------------------------------|
this comes in after gtr.1 has played the riff 3 times.

riff 7
---------------------------------|
---------------------------------|
---------------------------------|
-2"---7-2"---5-2"---4-2"---4-5-4-|
-0"---5-0"---3-0"---2-0"---2-3-2-|
---------------------------------|

insane moshtacular riff after the snare roll and
corpsegrinder's "ATTACKKKKKKKK!!!!!!"


riff 8
-------------------------------------------------|
-------------------------------------------------|
-------------------------------------------------|
-2-2-2-5-2-2-2-2-2-7-5-2-2-2-2-5-2-2-2-2-2-4-5-4-|
-0-0-0-3-0-0-0-0-0-5-3-0-0-0-0-3-0-0-0-0-0-2-3-2-|
-------------------------------------------------|
   . .     .     .     .   . .     .     .

"bullets are flying, people are dying....etc"


riff 9
--------------------|
--------------------|
--------------------|
--5--4--------------|
--3--2--2"----------|
--------0"----------|

 "NO REMORSE!!!!!!!!"


riff 10
----------------------------|
----------------------------|
----------------------------|
-----------7----------------|
-----------5--------------2-|
-0-0-3p2-0------0-0-3p2-0-0-|


Acordes para guitarra
x

Todo acerca de Cannibal Corpse