Acordes para guitarra

Indice Camaron De La Isla

guitartabs

===================================================
* Camaron de la Isla                              *
* SAMARA                                          *
* ---???---                                       *
* ---???--- ()                                    *
============================================TAB====

Samara
Cejilla 4
                   Sib
Aquí metio en la trena
                   La
yo te recuerdo llorando
                 Sib
y me moriré de pena
                        La
mientras tu estás disfrutando,.

Do              Sib        La
Ay que dolor, que dolor, que dolor.

e:----------------------------3^0-------------------------------
B:--------------------------2-----------------------------------
G:-La-----Sib----La-----2^3-------La-----Sib-----La-------------
D:-------------------------------------------------------------
A:-------------------------------------------------------------
E:-------------------------------------------------------------

e:---------------------------------------------------------------
B:--------------------------1-3-1--------------------------------
G:-La-----Sib----La-----2^3------3-2-3-2-------------Sib-La------
D:---------------------------------------3-2-0-------------------
A:---------------------------------------------3-1-0------------
E:--------------------------------------------------------------



La                                  Sib
Por llanto iban mis ojos a la fuente de peré

e:-------------------------------------------------------------
B:-------------------------------------------------------------
G:-------------------------------------------------------------
D:--3-2-2-0-0----3-2-2-0-0------------------------------------------------
A:------------3------------3-------------------------------------
E:-------------------------------------------------------------
Sib                                         La
contra mas agua cogía más veces queria volver
Do               Sib               La
contra mas agua cogía más veces queria volver

e:----------------------------3^0-------------------------------
B:--------------------------2-----------------------------------
G:-La-----Sib----La-----2^3-------La-----Sib-----La-------------
D:-------------------------------------------------------------
A:-------------------------------------------------------------
E:-------------------------------------------------------------

e:--------------------------------------------3^0---------------
B:------------------------------------------2-------------------
G:--------------------------------------2^3--------La-Sib-La---
D:-La----Sib-----------0-2-3-2-0-------------------------------
A:---------------0-1-3-----------3-1-0-------------------------
E:-------------------------------------------------------------

Sib                La
En mis sueños te llamaba
e:-------------------------------------------------------------
B:-------------------1-3-1----------------------------------------
G:-------------0-2-3-------3-2-0-------------------------------------
D:-------0-2-3-------------------3-2-0-------------------------------
A:-0-1-3-------------------------------3-1-0-------------------------
E:-------------------------------------------------------------
Sib                La
y tu no me respondías
Sib                      La
y de día llorando me despertaba
Do
porque yo no te veía
Sib            La
ayyy ayyyyy ayyyyy.

e:----------------------------3^0-------------------------------
B:--------------------------2-----------------------------------
G:-La-----Sib----La-----2^3-------La-----Sib-----La-------------
D:-------------------------------------------------------------
A:-------------------------------------------------------------
E:-------------------------------------------------------------

e:-------------------------------------------------------------
B:-------------------------------------------------------------
G:--------------------------------------------------------Bis--
D:-2-2-0---0-2-3-2-0------------------------------0------------
A:-------3-----------5-5-5-3-1-0-1-3--3-3-1-0-1-3---3-1-3-1-0--
E:-------------------------------------------------------------

Do Sib La Sib La
La Sib La

Sib           
La que me lavó el pañuelo
                 
fue una gitanita mora 
                Do
mora de la morería
Sib                                      Do
me lo lavó de aguafría me lo tendió de romero
Do                   Sib                   La
y le canté por bulerías mientras se secó el pañuelo.
Do                   Sib                   La
y le canté por bulerías mientras se secó el pañuelo.

e:----------------------------3^0-------------------------------
B:--------------------------2-----------------------------------
G:-La-----Sib----La-----2^3-------La-----Sib-----La-------------
D:-------------------------------------------------------------
A:-------------------------------------------------------------
E:-------------------------------------------------------------

e:-------------------------------------------------------------
B:-------------------------------------------------------------
G:-------3-2--0-2-0--------------------------------------------
D:-0-2-3------------3-2-3-2-0---2---0-2-3-5-3-2-3-2-0-----------
A:----------------------------3---------------------------------
E:-------------------------------------------------------------

e:-------------------------------------------------------------
B:-------------------------------------------------------------
G:-------------------------------------------------------------
D:----------------------0-0------0-0-----0-0-------------------
A:-0-1-3-1-0--1-3--1-0------3-1------3-1-----3-1-0-------------
E:-------------------------------------------------------------

La Sib La

Sib       La
Samara, 
Sib                                La
fue elegía por los moros reina de la morería
Sib                   La
toíto el pueblo la adoraba
Rem                Do 
le rezaban noche y día
Do                         Sib                      La
por que la reina Samara con su cara gitana una virgen parecía.

Rem   Do       Sib       La
Ayy Samara reina de la morería
Rem            Do
Samarita si, Samarita si
Sib                La
ay Samarita mía de mi corazón.
Sib                La
ay Samarita mía de mi corazón.

Rem Do Sib La

===================================================
Colaboracion de Luis Ortiz



Acordes para guitarra
x

Todo acerca de Camaron De La Isla