Acordes para guitarra

Indice Cafe Quijano

guitartabs

===================================================
| Cafe Quijano                                    |
| NO TIENES CORAZON                               |
| ---???---                                       |
| ---???--- ()                                    |
============================================TAB====

                Café Quijano 
                     &
               Joaquín Sabina

              No tienes corazón


              Bm                Em            F#              Bm
E |----------|-7-6-7-9-10-----|--------------|---------------|-----------|
B |-------7--|-------------7--|-10--8--8---8-|-7-8-7-8-7-----|--------7--|
G |----------|----------------|--------------|------------9--|-7---------|
D |----------|----------------|--------------|---------------|-----------|
A |----------|----------------|--------------|---------------|-----------|
E |----------|----------------|--------------|---------------|-----------|

 Bm               Em            A
|-7-6-7-9-10-----|-------------|-----7-9-7----7--|
|-------------7--|-10--8--8----|--10-------10----|
|----------------|-------------|-----------------|
|----------------|-------------|-----------------|
|----------------|-------------|-----------------|
|----------------|-------------|-----------------|

 Bm           
 Si quieres, te cuento los cuentos que tu me contabas

 Em
 Si quieres, te escribo una lista con nombres y camas

 A
 Si quieres  me sigo creyendo que fuiste una santa

 Bm
 No tienes perdón.

|---------------|------------|
|---------------|------------|
|---6-7---?9 ---|-7--6-------|
|-9-----9-------|-------9----|
|---------------|------------|
|---------------|------------|

 Bm
 Como tienes la poca vergüenza de entrar en mi casa 

|-----------------|
|-----------------|
|---7-9-´10-9-7---|
|-9-------------9-|
|-----------------|
|-----------------|
PM..................

 Em
 Como tienes valor de llamar por las noches a ver que me pasa

 A
 Como tienes la lengua tan larga y la risa tan falsa,

 Bm
 No tienes corazón,

|---------------|------------|
|---------------|------------|
|---6-7---?9 ---|-7--6-------|
|-9-----9-------|-------9----|
|---------------|------------|
|---------------|------------|

 (Estribillo)
 Bm 	                 Em
*Y mírame a la cara, y atrévete a negarme

 Bm	                    F#	
 Que conoces tantas camas como historias que contarme

 Bm	                  Em
 Mejor no des detalles, prefiero que te calles

 Bm	                          F#
 Que me evites, que te halague, con piropos y verdades.


 Bm
 Tuviste muy poco respeto y poco cuidado

 Em
 Hiciste que fuera el payaso en tu circo privado

 A
 Dejaste un imbecil muy grande en mi frente pintado

 Bm
 No tienes perdón.

 Bm
 Ahora entiendo el afán por viajar con tu hermana a la habana

 Em
 O las cenas aquellas con tus compañeras una vez por semana

 A
 Y los viejos amigos y algún que otro primo que ya peinan en canas

 Bm
 No tienes corazón.


 Bm 	                 Em
*Y mírame a la cara, y atrévete a negarme

 Bm	                    F#	
 Que conoces tantas camas como historias que contarme

 Bm	                  Em
 Mejor no des detalles, prefiero que te calles

 Bm	                          F#
 Que me evites, que te halague, con piropos y verdades.



              Bm                Em            F#              Bm
E |----------|-7-6-7-9-10-----|--------------|---------------|-----------|
B |-------7--|-------------7--|-10--8--8---8-|-7-8-7-8-7-----|--------7--|
G |----------|----------------|--------------|------------9--|-7---------|
D |----------|----------------|--------------|---------------|-----------|
A |----------|----------------|--------------|---------------|-----------|
E |----------|----------------|--------------|---------------|-----------|

 Bm               Em            F#
|-7-6-7-9-10-----|-------------|-----------------|-----------------|
|-------------7--|-10--8--8----|-8-7-8-7-8-7-8-7-|-8-7-8-7-8-7-8-7-|
|----------------|-------------|-----------------|-----------------|
|----------------|-------------|-----------------|-----------------|
|----------------|-------------|-----------------|-----------------|
|----------------|-------------|-----------------|-----------------|

 (Arpegio)
 Em                            G7
 Y me debes año y medio, mucha sangre tu me debes,

 Em	            G7               F#7
 Y tu culpa es mi remedio, sean benditos tus deberes.


 (Acelerando)

 Bm             	   Em
 Y mírame a la cara, y atrévete a negarme

 Bm	                      F#	
 Que conoces tantas camas como historias que contarme

 Bm	                      Em
 Mejor no des detalles, prefiero que te calles

 Bm	                       F#
 Que me evites, que te halague, con piropos y verdades.
 

 Bm 	                Em
*Y mírame a la cara, y atrévete a negarme

 Bm	                    F#	
 Que conoces tantas camas como historias que contarme

 Bm	                    Em
 Mejor no des detalles, prefiero que te calles

 Bm	                            F#
 Que me evites, que te halague, con piropos y verdades.

----------------


Songoro cosongoro, muy chida rola. LOS QUIERO

===================================================
Colaboracion de Carlos Alfonso



Acordes para guitarra
x

Todo acerca de Cafe Quijano