Acordes para guitarra

Indice Cafe Quijano

guitartabs

===================================================
| Cafe Quijano                                    |
| EL PERDIDO                                      |
| Cafe Quijano                                    |
| ---???--- ()                                    |
============================================TAB====

Dedicada a 'J.L.Gollum' y a 'KripXP' ;)

Es difícil que el punteo del principio suene igual con una
sola guitarra, pero este que he sacado queda bastante bien.
Espero que os guste.


   REm            LAm            MI
E|-----|--1--0--------|--0-----------|-----------4--5--6—7-|
B|--3--|--------3--1--|-----3--1--0--|--3--1--0------------|
G|--2--|-----------2--|-----------1--|---------------------|
D|--0--|-----------2--|-----------2--|---------------------|
A|--0--|-----------0--|-----------2--|---------------------|
E|-----|--------------|--------------|---------------------|

  REm            LAm             MI
E|----1---|-1---1----0---|-0---0----0----0---|-0-0-1-0------—|
B|-3----3-|---3---1----1-|---1---0----0----0-|---------3-1-0-|
G|-2------|-------2------|-------1-----------|---------------|
D|-0------|-------2------|-------2-----------|---------------|
A|-0------|-------0------|-------2-----------|---------------|
E|--------|--------------|-------------------|---------------|

 
LAm   FA   DO   SOL
LAm   FA   DO   SOL

LAm                   FA
Eres un perdido de la sociedad;
DO                     SOL
eres sólo carne y poco más.
LAm                              FA
Cuántas veces te has puesto a pensar
       DO              SOL
en las horas que desperdicias
   LAm                    FA
quemando y jugando con tu vida,
  DO                     SOL
girando la ruleta del destino,
     LAm                    FA
acariciando los dedos del peligro,
    DO                   SOL
apostando a números prohibidos.

LAm                  FA
   Debes curar tu nocturnidad
   DO                       SOL
   aunque no te puedas explicar
   LAm                       FA
   qué tiene la noche que no tenga el día,
   DO                         SOL
   qué tiene tu sangre que nunca se enfría.

Eres hombre reo de la soledad
pues buscas en tu noche algo que no hay;
sólo encuentras ojos que nunca te ven,
historias de mentira que nadie se cree,
regalos de una dama de mirada cruel
que te besa sin saber por qué,
agrios desprecios debajo de la luna,
agrios despechos si te mira el sol.

Debes curar tu nocturnidad... (2 veces)

(((PUNTEO)))

Eres el mendigo de una calle gris,
de lugares escondidos, turbios y sin luz.
Te cargas a la espalda bolsas de dolor,
arrastras la miseria de una triste voz.
Vagabundo ciego, vagabundo errante,
solitario cuerpo por el mundo “alante”;
vagabundo eres porque tú lo quieres,
en la noche solo vagabundo eres.

Debes curar tu nocturnidad... (2 veces)

LAm      FA     DO     SOL    MI 
   Relájate,           suave, suave…
LAm      FA     DO     SOL    MI 
   Relájate,           suave, suave…
LAm      FA     DO     SOL    MI 
   Relájate,           suave, suave…
LAm      FA     DO     SOL    MI 
   Relájate,           suave, suave…

===================================================
Colaboracion de Sandro



Acordes para guitarra
x

Todo acerca de Cafe Quijano