Acordes para guitarra

Indice Cafe Quijano

guitartabs

===================================================
| Cafe Quijano                                    |
| DESDE BRASIL                                    |
| ---???---                                       |
| ---???--- ()                                    |
============================================TAB====

La Intro la hacen con una guitarra clasica (española)
xo a mitad empieza una especie de duo con una guitarra
electrica por eso igual pensais que no es acertado,
pero creo que esta bien.

E: -----------------------------------------4-7--4-
B: -2/7—-10-9-7----------------7----------------2--
G: -----6-------6-4-6---------6--------7-6---------
D: ------------------9-7-6--4-----4-6--------------
A: ------------------------------------------------
E: ------------------------------------------------
                                               (2/7 Electrica)
                 (apoyatura)
                    ||
                    \/
E: -2—4—5—------9-7-5-7-5-4-2-0-----5-5------------9-7-5-4-|  
B: -------3-3---------------------2------2-5-3-2-----------|
G: --------------------------------------------------------|
D: --------------------------------------------------------|
A: --------------------------------------------------------|
E: --------------------------------------------------------|


Aqui esta el solo tocado por una guitarra electrica:

e: -4-2-4-2---4-2-4-2---4-2-4-2--4/7-5-4-2- 
B: ----------------------------------------
G: ----------------------------------------

e: -4-2-4-2---4-2--------------
B: ---------------2--5-2--3-5--
G: ----------------------------

e: -4-2-4-2---4-2-4-2---4-2-4-2--4/7-5-4-2- 
B: ----------------------------------------
G: ----------------------------------------

e: -4-2-4-2---4-2--------------|
B: ---------------2--5-2--5-2--|
G: ----------------------------|

===================================================
Colaboracion de Jorge Álvarez



Acordes para guitarra
x

Todo acerca de Cafe Quijano