Acordes para guitarra

Indice Cafe Quijano

guitartabs

===================================================
| Cafe Quijano                                    |
| ANTE TODO                                       |
| Cafe Quiano                                     |
| ---???--- ()                                    |
============================================TAB====

Este punteo se lo dedico a la chica mas bonita del mundo llamada Ceci

*********************************************************************

Posicion de:
    Sol.M                   Re.M                  Sol.M        Re.M
E:/------------------------------------------------3----------------
A:/---------2-2----------------------0-2-3---2-0--------------------
D:/--------------------------0----------------------------------0---
G:/------0-------0-----------2-----------------------0----------2---
B:/----0-----------0---0-----3-------------------------0---0----3---
E:/--3---------------3---3---2--3-2----------------------3---3--2---


    Do.M  Sol.M          Re.M  Do.M  Sol.M              
E:/--------3-------------------------3---------
A:/--3-------------------------3---------------
D:/----------------------0---------------------
G:/--0-------0-----------2-----0-------0-------
B:/--2---------0---0-----3-----2---------0-----
E:/--0-----------3---3---2-----0-----------3---

*********************************************************************

Este punteo normalmente se toca con un bandolin pero se puede tocar 
con una guitarra tambien. Este punteo se toca acompaņado de una 
guitarra con los acordes siguientes: Sol.M  Re.M  Do.M  Sol.M  Re.M  
Do.M  Sol.M

E:/-----------------------------------------------------
A:/-----------------------------------------------------
D:/-----------------------------------------------------
G:/-----------------------------------------------------
B:/-----------------------------------------------------
E:/----7----5-7---7-5-3--5-7---7--12-10-5--7-5-3---0-3--

Ante todo tarto de explicarte ..... 
          (Podeis cojer los acordes de mi compaņero Hector)

   ***Este punteo se saca muy facilmente escuchando la Cancion***

 Gracias Emili

===================================================
Colaboracion de Luis Araujo



Acordes para guitarra
x

Todo acerca de Cafe Quijano