Acordes para guitarra

Indice Bonanza

guitartabs

=====================================================================
| ARTISTA: Bonanza                                                  |
| CANCION: Cuando agosto era 21                                     |
| AUTOR:   Bonanza (?)                                              |
| ALBUM:   -?-                                                      |
+------------------------------------------------------TAB-bona0013-+
| TRANS:   Javier E                                                 |
=====================================================================

Hola amigos de atame ... bueno soy primerizo en esto.
Pero la tablatura que les mando esta muy bien hecha,
pues la hice con mucho gusto ... y tambien me daria
un gusto tremendo si a alguien le sirve... sin mas
rodeos ahi se las mando:

empieza con arpegio en SIm

1)----------2-----2------------2-----2--
2)--------3---3--------------3---3------
3)------4-------4----------4-------4----
4)----4------------------4--------------
5)--2------------------2----------------
6)--------------------------------------

aqui va lo bueno:
       Mim       La       Re         Sim
1)------------------------------5-------
2)--5-7-7h8--7h8-5-----3-5-5h7----7-5-3-
3)-----------------6--------------------

        Mim   Fa#        Sim
1)----------------------------------
2)--2-3-3h5--3-2------2-3--5-7-----
3)------------------4--------------

        Mim         La         Re       Sim
1)-----------7-9-10-9-7---9-9-7-5--5-7-9-7--------
2)--5-7-7h8---------------------------------------
3)------------------------------------------------

          Mim      Fa#      Sim
1)--7-7-5-3--3-5-7-6---4-6-7-----------
2)---------------------------7---------
3)-----------------------------7-4-----

Bueno las notas que estan arriba del piqueo,se hace
en forma de arpegio en una segunda guitarra
.. estas mismas notas arpegeadas sirven para cantar
para cantarla le recomiendo la primera colaboracion
de esta misma canción.

Aqui les mando las notas con el recorrido del arpegio:

          Sim                       Mi
1)----------2-----2-----------------0-----0--
2)--------3---3-------------------0---0------
3)------4-------4---------------0-------0----
4)----4-----------------------2--------------
5)--2-----------------------2----------------
6)-------------------------------------------

           La                      Mi
1)----------0-----0-----------------2-----2-
2)--------2---2-------------------3---3-----
3)------2-------2---------------2-------2---
4)----2-----------------------0-------------
5)--0-----------------------0---------------
6)------------------------------------------

             Fa#
1)-----------2-----2-----------------------
2)---------2---2---------------------------
3)-------3-------3-------------------------
4)-----4-----------------------------------
5)---4-------------------------------------
6)-(2)-------------------------------------

Bueno eso es todo espero le s sirva.
ahhhh me olvidava con esta cancion saludo a mis patas
gusse y master que querian que los salude jajaja
bueno si hay duda solo escriban a mi correo chauuuu.


1113477522

Acordes para guitarra
x

Todo acerca de Bonanza