Acordes para guitarra

Indice Baby Bash

guitartabs





Suga Suga --  Baby Bash


This song dedicated to sheraf
( PEACE OUT ya'll -sheraf sonam in tha house )


Tablature
----------------
L - tied note
g - grace note
h - hammer on
p - pull off
b - bend


Guitar (Capo 1)
Capo on first fret

-------------------------------------------------------------|
--------------------------1g3p--1----------------------------|
---------------------2---------------2----0----0h-2p-0-------|
------------------------2---------2---------------------2-L--|
--0------------------------------------0----0----------------|
-------------------------------------------------------------|

-------------------------------------|
--------------------------2g4p--2-L--|
-----5-------7-----------------------|
--3-----3-5-----5-0--L--0------------|
-------------------------------------|


Take it easy with the song it ain't easy needs practice. actually just get the timing 
Acordes para guitarra
x

Todo acerca de Baby Bash